The Offspring

Coming For You

Coming For You by The Offspring Bass Tab and Video Lesson

139 BPM 139 BPM

Level: Intermediate

Genre:Alternative Rock

Instrument:4 String Bass

NOTES

Learn how to play "Coming For You" by The Offspring in Bass Guitar.

G|----------------------------|----------------------------||
D|----------------------------|------------------5--------*||
A|--------7-----7-----7-----7-|------7-----7-------5h---7-*||
E|--0-------0-----0-----0-----|--0-----0-----3-------------||


G|---------------------------|----------------------------||
D|*--------------------------|------------------5--------*||
A|*------7-----7-----7-----7-|------7-----7-------5h---7-*||
E|---0-----0-----0-----0-----|--0-----0-----3-------------||


G|--------------------------|--------------------------|
D|--------------------------|--------------------------|
A|--------------------------|--5---5-5---5-5---5-5---5-|
E|--3---3-3---3-3---3-3---3-|--------------------------|


G|--------------------------|---------------------------||----------------------||
D|--------------------------|--------------------------*||----------------------||
A|--------7---7-------7---7-|--------7---7-5----5h---7-*||--7----2----3----5----||
E|--0---0-------0---0-------|--0---0--------------------||----------------------||



G|-------------------------------|--------------------------|
D|-------------------------------|--5---5-5---5-------------|
A|--7--------7-7---7-3---3-3---3-|--------------5---5-5---5-|
E|-------------------------------|--------------------------|


G|--------------------------|--------------------------|
D|--------------------------|--5---5-5---5-------------|
A|--7---7-7---7-3---3-3---3-|--------------5---5-5---5-|
E|--------------------------|--------------------------|


G|--------------------------|--------------------------|
D|--------------------------|--5---5-5---5-------------|
A|--7---7-7---7-3---3-3---3-|--------------5---5-5---5-|
E|--------------------------|--------------------------|


G|--------------------------|--------------------------|
D|--------------------------|--------------------------|
A|--2---2-2---2-2---2-2---2-|--2---2-2---2-5----5h---7-|
E|--------------------------|--------------------------|


G||---------------------------|----------------------------||
D||*--------------------------|------------------5--------*||
A||*------7-----7-----7-----7-|------7-----7-------5h---7-*||
E||---0-----0-----0-----0-----|--0-----0-----3-------------||



G|-------------------------------|--------------------------|
D|-------------------------------|--5---5-5---5-------------|
A|--7--------7-7---7-3---3-3---3-|--------------5---5-5---5-|
E|-------------------------------|--------------------------|


G|--------------------------|--------------------------|
D|--------------------------|--5---5-5---5-------------|
A|--7---7-7---7-3---3-3---3-|--------------5---5-5---5-|
E|--------------------------|--------------------------|


G|--------------------------|--------------------------|
D|--------------------------|--5---5-5---5-------------|
A|--7---7-7---7-3---3-3---3-|--------------5---5-5---5-|
E|--------------------------|--------------------------|


G|--------------------------|---------------------------||
D|--------------------------|--------------------------*||
A|--2---2-2---2-2---2-2---2-|--2---2-0---0-------------*||
E|--------------------------|--------------3---3-2---2--||


G|--------------------------||
D|--------------------------||
A|--2---2-2---2-2---2-2---2-||
E|--------------------------||



Guitar Solo

G|----------------------------------|--------------------------|
D|----------------------------------|--------------------------|
A|--3-----------3-3---3-------------|--5---5-5---5-------------|
E|----------------------3---3-3---3-|--------------5---5-5---5-|


-------------------|---------------------|--------------------------|
D|-------------------|---------------------|--------------------------|
A|-------------------|-------------------5-|--7---7-7---5-----------5-|
E|-------------------|---------------------|--------------5---5-5-----|


G|--------------------------|----------------------|----------------------|
D|--------------------------|----------------------|----------------------|
A|--7---7-7---5-------------|--3----3----3----3----|--5----5----5----5----|
E|--------------5---5-5---5-|----------------------|----------------------|


G|----------------------|----------------------|----------------------|
D|----------------------|----------------------|----------------------|
A|--7----7----7----7----|----------------------|--3----3----3----3----|
E|----------------------|--7----7----7----7----|----------------------|


G|----------------------|--------------------------|--------------------------|
D|----------------------|--------------------------|--------------------------|
A|--5---------5----5----|--------------7---7-7---7-|--7---7-------------------|
E|-------5--------------|--5---5-5---5-------------|--------5---5-3---3-2---2-|


G|--------------------------|--------------------------|
D|--------------------------|--------------------------|
A|--3---3-3---3-------------|--5---5-5---5-------------|
E|--------------3---3-3---3-|--------------5---5-5---5-|


G|--------------------------|--------------------------|
D|--------------------------|--------------------------|
A|--7---7-7---7-7---7-7---7-|--2---2-2---2-2---2-2---2-|
E|--------------------------|--------------------------|


G|--------------------------|--------------------------|
D|--------------------------|--------------------------|
A|--3---3-3---3-3---3-3---3-|--5---5-5---5-5---5-5---5-|
E|--------------------------|--------------------------|


G||---------------------------|--------------------------|
D||*--------------------------|--------------------------|
A||*--------------------------|--------------------------|
E||---0---0-0---0-0---0-0---0-|--0---0-0---0-0---0-0---0-|


G|--------------------------|---------------------------||
D|--5---5-5---5-5---5-5---5-|--------------------------*||
A|--------------------------|--5---5-5---5-5---5-5---5-*||
E|--------------------------|---------------------------||


G|--------------------------|--------------------------|
D|--------------------------|--------------------------|
A|--2---2-2---2-2---2-2---2-|--2---2-2---2-2---2-2---2-|
E|--------------------------|--------------------------|


G|---------------------------|----------------------||
D|---------------------------|----------------------||
A|--2---2-2---2-2---2-2---2/-|--14------------------||
E|---------------------------|----------------------||



G|-------------------|---------------------|--------------------------|
D|-------------------|---------------------|--------------------------|
A|-------------------|-------------------5-|--7---7-7---5-----------5-|
E|-------------------|---------------------|--------------5---5-5-----|


G|--------------------------|--------------------------|
D|--------------------------|--------------------------|
A|--7---7-7---5-----------5-|--7---7-7---5-----------5-|
E|--------------5---5-5-----|--------------5---5-5-----|


G|--------------------------|--------------------------|-----------------------||
D|--------------------------|--------------------------|-----------------------||
A|--7---7-7---5-----------5-|--7---7-7---5-----------5-|--7---7-5---7----------||
E|--------------5---5-5-----|--------------5---5-5-----|-----------------------||



Leave your comments about this lesson