Thin Lizzy

Dancing in the Moonlight

Dancing in the Moonlight by Thin Lizzy Bass Tab and Video Lesson

Level: Intermediate

Genre:Pop/Rock

Instrument:4 String Bass

NOTES

How to play Dancing in the Moonlight by Thin Lizzy in Bass Guitar.

Intro and Sax Solo

G|-----------------------|--------------------------|
D|-----------------------|--------------------------|
A|-----------------5--5--|--7--------7-----7--5-----|
E|-----------7--7--------|-----------------------7--|

G|--------------------------|--------------------------|
D|--------------------------|--------------------------|
A|--5--5--7--7--------5--5--|--3--------3-----3--2--0--|
E|--------------7--7--------|--------------------------|

G|--------------------------|--------------------------|
D|--------------------------|--------------------------|
A|--------------------5--5--|--7--------7-----7--5-----|
E|--3--------7--L--7--------|-----------------------7--|

G|--------------------------|--------------------------|
D|--------------------------|--------------------------|
A|--5--5--7--7--------5--5--|--3--------3--L--3--2--0--|
E|--------------7--7--------|--------------------------|

               |--3--|  |--3--|          
G|-------------------------------|-----|
D|-------------------------------|-----|
A|-------------------------------|-----|
E|--3----------3--3--3--3--3--3--|--3--|



Verse 1 and Chorus 1

G|--------------------------|-------------------------|
D|*-------------------------|-------------------------|
A|*--7--------7--L-------7--|--5--------5--L----7--5--|
E|--------------------------|-------------------------|

                                                      3x
G|-------------------------|--------------------------||-------------------------|
D|-------------------------|-------------------------*||-------------------------|
A|--3--------3--L-------3--|-------------------------*||--7--------7--L-------7--|
E|-------------------------|--3--------3--L-------3---||-------------------------|

G|-------------------------|-------------------------|--------------------------|
D|-------------------------|-------------------------|--------------------------|
A|--5--------5--L----7--5--|--3--------3--L-------3--|--------------------5--5--|
E|-------------------------|-------------------------|--3--------5--7--7--------|

G|-------------------------|-------------------------|-------------------------|
D|-------------------------|-------------------------|-------------------------|
A|--7--------7--L-------7--|--5--------5--L----7--5--|--3--------3--L-------3--|
E|-------------------------|-------------------------|-------------------------|

G|--------------------------|---------------------------|
D|--------------------------|---------------------------|
A|--------------------5--5--|--7--------7--L--7--10--9--|
E|--3--------7--L--7--------|---------------------------|

G|-------------------------|--------------------------|-----------|
D|-------------------------|--------------------------|-----------|
A|--5--------5--L-------5--|--3--------3--L--3--7--5--|-----------|
E|-------------------------|--------------------------|--3--------|



Verse 2 and Chorus 2

G|--------------------------|-------------------------|
D|*-------------------------|-------------------------|
A|*--7--------7--L-------7--|--5--------5--L----7--5--|
E|--------------------------|-------------------------|

G|-------------------------|-------------------------|-------------------------|
D|-------------------------|-------------------------|-------------------------|
A|--3--------3--L-------3--|-------------------------|--7--------7--L-------7--|
E|-------------------------|--3--------3--L-------3--|-------------------------|

G|-------------------------|-------------------------|-------------------------|
D|-------------------------|-------------------------|-------------------------|
A|--5--------5--L----7--5--|--3--------3--L-------3--|-------------------------|
E|-------------------------|-------------------------|--3--------3--L-------3--|

G|---------------------------|-------------------------|-------------------------|
D|---------------------------|-------------------------|-------------------------|
A|--7--------7--L--7--10--9--|--5--------5--L----7--5--|--3--------3--L-------3--|
E|---------------------------|-------------------------|-------------------------|

G|-------------------------|-------------------------|-------------------------|
D|-------------------------|-------------------------|-------------------------|
A|-------------------------|--7--------7--L-------7--|--5--------5--L----7--5--|
E|--3--------3--L-------3--|-------------------------|-------------------------|

G|-------------------------|--------------------------|-------|
D|-------------------------|--------------------------|-------|
A|--3--------3--L-------3--|--------------------5--5--|-------|
E|-------------------------|--3--------5--7--7--------|-------|

G|-------------------------|-------------------------|-------------------------|
D|-------------------------|-------------------------|-------------------------|
A|--7--------7--L-------7--|--5--------5--L----7--5--|--3--------3--L-------3--|
E|-------------------------|-------------------------|-------------------------|

G|--------------------------|-------------------------|--------------------------|
D|--------------------------|-------------------------|--------------------------|
A|--------------------5--5--|--7--------7--L-------7--|--9--------9--L----7------|
E|--3--------7--L--7--------|-------------------------|----------------------10--|

                                           |--3--|  |--3--|          
G|---------------------------|-------------------------------|-----|
D|---------------------------|-------------------------------|-----|
A|--10--------10--L----7--5--|-------------------------------|-----|
E|---------------------------|--3----------3--3--3--3--3--3--|--3--|



Guitar Solo

G|--------------------------|-------------------------|
D|*-------------------------|-------------------------|
A|*--7--------7--L-------7--|--5--------5--L-------5--|
E|--------------------------|-------------------------|

                                                      3x
G|-------------------------|--------------------------||-------------------------|
D|-------------------------|-------------------------*||-------------------------|
A|--3--------3--L-------3--|-------------------------*||--7--------7--L-------7--|
E|-------------------------|--3--------3--L-------3---||-------------------------|

G|-------------------------|-------------------------|--------------------------|
D|-------------------------|-------------------------|--------------------------|
A|--5--------5--L----7--5--|--3--------3--L-------3--|--------------------5--5--|
E|-------------------------|-------------------------|--3--------7--L--7--------|



G|--------------------------|-------------------------|
D|*-------------------------|-------------------------|
A|*--7--------7--L-------7--|--5--------5--L----7--5--|
E|--------------------------|-------------------------|

G|-------------------------|---------------------------|
D|-------------------------|--------------------------*|
A|--3--------3--L-------3--|--------------------5--5--*|
E|-------------------------|--3--------7--L--7---------|

G|-------------------------|-------------------------|
D|-------------------------|-------------------------|
A|--7--------7--L-------7--|--9--------9--L-------9--|
E|-------------------------|-------------------------|

G|----------------------------|--------------------------|
D|----------------------------|--------------------------|
A|--10--------10--L-------10--|--------------------5--5--|
E|----------------------------|--3--------7--L--7--------|

G|-------------------------|-------------------------|-------------------------|
D|-------------------------|-------------------------|-------------------------|
A|--7--------7--L-------7--|--5--------5--L----7--5--|--3--------3--L-------3--|
E|-------------------------|-------------------------|-------------------------|

G|--------------------------|------------------------|-----------------------|
D|--------------------------|--------------7----9----|--------4----5----7----|
A|--------------------5--5--|--7--7--10--------------|--5--5-----------------|
E|--3--------7--L--7--------|------------------------|-----------------------|

G|-----------------------|-----------------------|-----------------------|
D|--------2----3----5----|-----------------------|--------5----7----5----|
A|--3--3-----------------|--------2----3----5----|--7--7-----------------|
E|-----------------------|--3--3-----------------|-----------------------|

G|----------------------|----------------------|-----------------------|
D|--4----5----7----5----|-------2----3----5----|-----------------------|
A|----------------------|--3-------------------|--------2----3----5----|
E|----------------------|----------------------|--3--3-----------------|

G|------------------------|----------------------|----------------------|
D|------------------------|-------7----5----4----|-------2----3----5----|
A|--7--7--9----10----9----|--5-------------------|--3-------------------|
E|------------------------|----------------------|----------------------|

G|-----------------------|
D|-----------------------|
A|--------2----3----5----|
E|--3--3-----------------|



Leave your comments about this lesson