Tom Petty & the Heartbreakers

I Won't Back Down

I Won't Back Down by Tom Petty & the Heartbreakers Bass Tab and Video Lesson

Level: Beginner

Genre:Pop/Rock

Instrument:4 String Bass

NOTES

How to play I Won't Back Down by Tom Petty & the Heartbreakers in Bass Guitar.

Intro and Verse

G|--------------------------|--------------------------|
D|--------------------------|--------------------------|
A|--7--7--7--7--5--5--5-----|--------------------------|
E|-----------------------3--|--3--3--3--3--3--3--3--3--|

G|--------------------------|--------------------------|
D|--------------------------|--------------------------|
A|--7--7--7--7--5--5--5-----|--------------------------|
E|-----------------------3--|--3--3--3--3--3--3--3--3--|

G|--------------------------|--------------------------|
D|--------------------------|--------------------------|
A|--7--7--7--7--5--5--5-----|--------------------------|
E|-----------------------3--|--3--3--3--3--3--3--3--3--|

G|--------------------------|--------------------------|
D|--------------------------|--------------------------|
A|--7--7--7--7--5--5--5-----|--------------------------|
E|-----------------------3--|--3--3--3--3--3--3--3--3--|

G|--------------------------|--------------------------|
D|--------------------------|--------------------------|
A|--7--7--7--7--5--5--5--5--|--3--3--3--3--3--3--3--5--|
E|--------------------------|--------------------------|

G|--------------------------|--------------------------|-----|
D|--------------------------|--------------------------|-----|
A|--7--7--7--7--5--5--5-----|--------------------------|--7--|
E|-----------------------3--|--3--3--3--3--3--3--3--3--|-----|



G|--------------------------|--------------------------|
D|--------------------------|--------------------------|
A|--------------3--------3--|--L--3--3--3--3--------5--|
E|--3--3--3--3-----3--L-----|-----------------3--3-----|

G|--------------------------|--------------------------|
D|--------------------------|--------------------------|
A|--L--5--5--5--5--------3--|--L--3--3--3--3--------5--|
E|-----------------3--3-----|-----------------3--3-----|

G|--------------------------|--------------------------|
D|--------------------------|--------------------------|
A|--L--5--5--5--5--------3--|--L--3--3--3--3--------5--|
E|-----------------3--3-----|-----------------3--3-----|

G|--------------------------|--------------------------|
D|--------------------------|--------------------------|
A|--L--5--5--5--5--5--5--5--|--7--7--7--7--5--5--5-----|
E|--------------------------|-----------------------3--|

G|--------------------------|--------------------------|
D|--------------------------|--------------------------|
A|-----------------------5--|--7--7--7--7--5--5--5-----|
E|--3--3--3--3--3--3--7-----|-----------------------3--|

G|--------------------------|
D|--------------------------|
A|-----------------------5--|
E|--3--3--3--3--3--3--7-----|



Guitar Solo

G|--------------------------|--------------------------|
D|--------------------------|--------------------------|
A|--7--7--7--7--5--5--5-----|--------------------------|
E|-----------------------3--|--3--3--3--3--3--3--3--3--|

G|--------------------------|--------------------------|
D|--------------------------|--------------------------|
A|--7--7--7--7--5--5--5-----|-----------------------5--|
E|-----------------------3--|--3--3--3--3--3--3--7-----|

G|--------------------------|--------------------------|
D|--------------------------|--------------------------|
A|--7--7--7--7--5--5--5--3--|--3--3--3--3--3--3--3--5--|
E|--------------------------|--------------------------|

G|--------------------------|--------------------------|
D|--------------------------|--------------------------|
A|--7--7--7--7--5--5--5-----|-----------------------5--|
E|-----------------------3--|--3--3--3--3--3--3--7-----|

G|--------------------------|--------------------------|-----|
D|--------------------------|--------------------------|-----|
A|--7--7--7--7--5--5--5--5--|--------------3--------3--|--L--|
E|--------------------------|--3--3--3--3-----3--L-----|-----|



Leave your comments about this lesson