Velvet Revolver

Slither

Slither by Velvet Revolver Bass Tab and Video Lesson

Level: Easy

Genre:Pop/Rock

Instrument:4 String Bass

NOTES

How to play Slither by Velvet Revolver in Bass Guitar.

G|--------------------------------------|--------------------------|
D|--------------------------------------|--------------------------|
A|--------------------------8--8--8-----|--------------8--8--8--8--|
D|--0--------------0--0--0-----------0--|--0--0--0--0--------------|

G|--------------------------|--------------------------|
D|--------------------------|--------------------------|
A|--------------8--8--8-----|--------------8--8--8--8--|
D|--0--0--0--0-----------0--|--0--0--0--0--------------|

G|--------------------------|--------------------------|
D|--------------------------|--------------------------|
A|--------------8--8--8-----|--------------8--8--8--8--|
D|--0--0--0--0-----------0--|--0--0--0--0--------------|

G|--------------------------|---------------------------||
D|--------------------------|--------------------------*||
A|--------------8--8--8-----|--------------8--8--8--8--*||
D|--0--0--0--0-----------0--|--0--0--0--0---------------||

G|--------------------------|-------------------|
D|--------------------------|-------------------|
A|--------------8--8--8-----|-------------------|
D|--0--0--0--0-----------0--|-------------------|



                                         4x
G|--------------------------------------------|---------------------------|
D|--------------------------------------------|--------------------------*|
A|-----------------------------------------3--|--------------------------*|
D|--0--------------------3--4--0--5--6--0-----|--0--5--6--0--5--0--3--4---|



                                         4x
G|--------------------------------------------|---------------------------|
D|--------------------------------------------|--------------------------*|
A|-----------------------------------------3--|--------------------------*|
D|--0--------------------3--4--0--5--6--0-----|--0--5--6--0--5--0--3--4---|



G|----------------------------------|-------------------------|
D|----------------------------------|-------------------------|
A|----------------------------------|-------------------0--2--|
D|--0---------------0----0----L--0--|--L--0--0----0--0--------|

G|----------------------|--------------------------|----------------------|
D|----------------------|--------------------------|----------------------|
A|--3--------3----L--3--|--L--3--0--3--L--0--3--0--|--2--------2----L--2--|
D|----------------------|--------------------------|----------------------|

G|----------------------|-----------------------|-------------------------|
D|----------------------|-----------------------|-------------------------|
A|--L--2--L----3--------|-----------------------|-------------------------|
D|----------------------|--0----0----0----L--0--|--L--0--0----0--0--0--0--|

                                                         4x
G|---------------------------|---------------------------|
D|*--------------------------|--------------------------*|
A|*-----------------------3--|--------------------------*|
D|---0--3--4--0--5--6--0-----|--0--5--6--0--5--0--3--4---|



Guitar Solo

G|--------------------------------------------|--------------------------|
D|--------------------------------------------|--------------------------|
A|--------------------------------8--8--8-----|--------------8--8--8--8--|
D|--0--------------------0--0--0-----------0--|--0--0--0--0--------------|

G|--------------------------|--------------------------|
D|--------------------------|--------------------------|
A|--------------8--8--8-----|--------------8--8--8--8--|
D|--0--0--0--0-----------0--|--0--0--0--0--------------|

G|--------------------------|--------------------------|
D|--------------------------|--------------------------|
A|--------------8--8--8-----|--------------8--8--8--8--|
D|--0--0--0--0-----------0--|--0--0--0--0--------------|

G|--------------------------|-------------------|--------------------------|
D|--------------------------|-------------------|--------------------------|
A|--------------8--8--8-----|-------------------|--------------------------|
D|--0--0--0--0-----------0--|-------------------|--0--0--0--0--0--0--0--0--|

G|--------------------------|--------------------------|
D|--------------------------|--------------------------|
A|--------------------0--2--|--3--3--3--3--3--3--3--3--|
D|--0--0--0--0--0--0--------|--------------------------|

G|--------------------------|--------------------------|
D|--------------------------|--------------------------|
A|--3--3--3--3--3--0--3--0--|--2--2--2--2--2--2--2--2--|
D|--------------------------|--------------------------|

G|--------------------------|--------------------------|
D|--------------------------|--------------------------|
A|--2--2--2--0--3--3--3--3--|--------------------------|
D|--------------------------|--0--0--0--0--0--0--0--0--|

G|--------------------------|--------------------------|
D|--------------------------|--------------------------|
A|-----0--2--0--3--0--------|--------------------------|
D|--0-----------------3--4--|--0--0--0--0--0--0--0--0--|

G|--------------------------|--------------------------|
D|--------------------------|--------------------------|
A|--------------------0--2--|--3--3--3--3--3--3--3--3--|
D|--0--0--0--0--0--0--------|--------------------------|

G|--------------------------|--------------------------|
D|--------------3--2--0-----|--------------------------|
A|--3--3--0--3-----------3--|--2--2--2--2--2--2--2--2--|
D|--------------------------|--------------------------|

G|--------------------------|--------------------------|
D|--------------------------|--------------------------|
A|--2--2--2--0--3--3--3--3--|--5--5--5--5--------------|
D|--------------------------|--------------0--0--0--0--|

G|--------------------------||---------------------------|
D|-----3--3--3--5--5--7--7--||*--------------------------|
A|--------------------------||*-----------------------3--|
D|--0-----------------------||---0--3--4--0--5--6--0-----|

                             3x
G|---------------------------||-----------------------------|
D|--------------------------*||-----------------------------|
A|--------------------------*||-----------------------------|
D|--0--5--6--0--5--0--3--4---||--0--10--12--0--9--10--0--7--|

G|--------------------------|
D|--------------------------|
A|--------------------------|
D|--0--6--0--7--5--0--3--4--|



G|--------------------------------------|--------------------------|
D|--------------------------------------|--------------------------|
A|-----------------------------------3--|--------------------------|
D|--0--------------3--4--0--5--6--0-----|--0--5--6--0--5--0--3--4--|

G|-----------------------------|--------------------------|---------------------|
D|-----------------------------|--------------------------|---------------------|
A|-----------------------------|--------------------------|---------------------|
D|--0--10--12--0--9--10--0--7--|--0--5--6--0--5--0--3--4--|--0------------------|



Final Slow

G|--------------------------------------|--------------------------|
D|--------------------------------------|--------------------------|
A|-----------------------------------3--|--------------------------|
D|--0--------------3--4--0--5--6--0-----|--0--5--6--0--5--0--3--4--|

G|-----------------------------|--------------------------|---------------------|
D|-----------------------------|--------------------------|---------------------|
A|-----------------------------|--------------------------|---------------------|
D|--0--10--12--0--9--10--0--7--|--0--5--6--0--5--0--3--4--|--0------------------|



Leave your comments about this lesson