George Benson

Give me The Night

Give me The Night by George Benson Bass Tab and Video Lesson

Level: Easy

Genre:Jazz

Instrument:5 String Bass

NOTES

How to play Give me The Night by George Benson in Bass Guitar.

Intro and Verse

G|---------------------------------------------------------| 
D|--3----------------------------------1-3-----------------| 
A|------------------------------------------1----------1-2-| 
E|---------------------------------------------------------| 
B|---------------------------------------------------------| 

G|---------------------------|--------------------------| 
D|-----------------------1-2-|--3---1-3-----------------| 
A|--3---1-3--4-4-------------|-----------1----------1-2-| 
E|---------------------------|--------------------------| 
B|---------------------------|--------------------------| 

G|-------------------------|--------------------------| 
D|-------------------------|--3---1-3-----------------| 
A|--3---1-3--4-------------|-----------1----------1-2-| 
E|--------------4--6-------|--------------------------| 
B|--------------------4----|--------------------------| 

G|---------------------------|------1-------------------| 
D|-----------------------1-2-|--3-----3-----------------| 
A|--3---1-3--4-4-------------|-----------1----------1-2-| 
E|---------------------------|--------------------------| 
B|---------------------------|--------------------------| 

G|-------------------------| 
D|-------------------------| 
A|--3---1-3--4-------------| 
E|--------------4--6-------| 
B|--------------------4----| 



Intro and Verse Slow

G|---------------------------------------------------------| 
D|--3----------------------------------1-3-----------------| 
A|------------------------------------------1----------1-2-| 
E|---------------------------------------------------------| 
B|---------------------------------------------------------| 

G|---------------------------|--------------------------| 
D|-----------------------1-2-|--3---1-3-----------------| 
A|--3---1-3--4-4-------------|-----------1----------1-2-| 
E|---------------------------|--------------------------| 
B|---------------------------|--------------------------| 

G|-------------------------|--------------------------| 
D|-------------------------|--3---1-3-----------------| 
A|--3---1-3--4-------------|-----------1----------1-2-| 
E|--------------4--6-------|--------------------------| 
B|--------------------4----|--------------------------| 

G|---------------------------|------1-------------------| 
D|-----------------------1-2-|--3-----3-----------------| 
A|--3---1-3--4-4-------------|-----------1----------1-2-| 
E|---------------------------|--------------------------| 
B|---------------------------|--------------------------| 

G|-------------------------| 
D|-------------------------| 
A|--3---1-3--4-------------| 
E|--------------4--6-------| 
B|--------------------4----| 



G|--------------------------------------------------| 
D|--------------------------------------------3--2--| 
A|--1-------------------------------1-1-----1-------| 
E|--------------------------------------------------| 
B|--------------------------------------------------| 

G|--------------------------|--------------------------| 
D|--1-------------------1-2-|--3---1-3-----------------| 
A|--------------------------|-----------1----------1-2-| 
E|--------------------------|--------------------------| 
B|----------4-4-------------|--------------------------| 



G|----------------------------------3-1--------------| 
D|----------------------------------------3----------| 
A|--1----------------------------------------4-1-----| 
E|------------------------------------------------1--| 
B|---------------------------------------------------| 

G|--------------------------|--------------------------| 
D|----------1-1---------1-2-|--3---1-3-----------------| 
A|--------------------------|-----------1----------1-2-| 
E|--------------------------|--------------------------| 
B|--4-----------------------|--------------------------| 



G|-------------------------------------------------| 
D|------------------------------4-6--------4-------| 
A|-------------------------------------------------| 
E|--4--------------------------------2--L-----2----| 
B|-------------------------------------------------| 

G|-----------------6---6-----|-------------------------| 
D|---------------------------|------4-6--------4-------| 
A|------4-6--4--L----4---4---|-------------------------| 
E|---------------------------|--4--------2--L-----2----| 
B|--4------------------------|-------------------------| 

G|-----------------/6-------|-------------------------|-----------------6-------| 
D|--------------------------|------4-6--------4-------|-------------------------| 
A|------4-6--4--L------4----|-------------------------|------4-6--4--L-----4----| 
E|--------------------------|--4--------2--L-----2----|-------------------------| 
B|--4-----------------------|-------------------------|--4----------------------| 

G|-------------------------|-------------------|-------------------| 
D|------4-6--------4-------|-------------------|-------------------| 
A|-------------------------|-------------------|--4----------------| 
E|--4--------2--L-----2----|--0----------------|-------------------| 
B|-------------------------|-------------------|-------------------| 

G|-------------------|-------------------| 
D|-------------------|-------------------| 
A|-------------------|-------------------| 
E|--0----------------|-------------------| 
B|-------------------|--4----------------| 



Special Slow

G|-------------------------------------------------| 
D|------------------------------4-6--------4-------| 
A|-------------------------------------------------| 
E|--4--------------------------------2--L-----2----| 
B|-------------------------------------------------| 

G|-----------------6---6-----|-------------------------| 
D|---------------------------|------4-6--------4-------| 
A|------4-6--4--L----4---4---|-------------------------| 
E|---------------------------|--4--------2--L-----2----| 
B|--4------------------------|-------------------------| 

G|-----------------/6-------|-------------------------|-----------------6-------| 
D|--------------------------|------4-6--------4-------|-------------------------| 
A|------4-6--4--L------4----|-------------------------|------4-6--4--L-----4----| 
E|--------------------------|--4--------2--L-----2----|-------------------------| 
B|--4-----------------------|-------------------------|--4----------------------| 

G|-------------------------|-------------------|-------------------| 
D|------4-6--------4-------|-------------------|-------------------| 
A|-------------------------|-------------------|--4----------------| 
E|--4--------2--L-----2----|--0----------------|-------------------| 
B|-------------------------|-------------------|-------------------| 

G|-------------------|-------------------| 
D|-------------------|-------------------| 
A|-------------------|-------------------| 
E|--0----------------|-------------------| 
B|-------------------|--4----------------| 



Leave your comments about this lesson