Green Day

Oh Love

Oh Love by Green Day Bass Tab and Video Lesson

Level: Beginner

Genre:Punk Rock

Instrument:4 String Bass

NOTES

How to play Oh Love by Green Day in Bass Guitar.

G|----------------------------------------------|--------------------------|
D|----------------------------------------------|--------------------------|
A|--4----------------------------3----4---------|--6--6--6--6--6--6--6--6--|
E|-----------------------------------------4----|--------------------------|

G|--------------------------||----------------------------|
D|--------------------------||*---------------------------|
A|--6--6--6--6--6--6--6--6--||*---------------6--6--6--6--|
E|--------------------------||---4--4--4--4-4-------------|

G|-----------------------------|----------------------------|
D|-----------------------------|----------------------------|
A|---------------4-4--4-4--4-4-|---------------6--6--6--6-6-|
E|--4--4--4--4-4---------------|--4--4--4--4-4--------------|

G|--------------------------------||------------------------|
D|-------------------------------*||------------------------|
A|---------------6-6-6-6-6-6-6-6-*||--------------------4---|
E|--4--4--4--4-4------------------||--4--4------------------|

G|-----------------------|--------------------------|------------------------|
D|-----------------------|--------------------------|------------------------|
A|-----------------------|--4----4---4-4--4--4--4-4-|--------------------4---|
E|--4--4-----------------|--------------------------|--4--4------------------|



G|-------------------------------------------------|-----------------------|
D|-------------------------------------------------|-----------------------|
A|---------------------------------------------4---|-----------------------|
E|--4---------------------------4------------------|--4--4-----------------|

                                                      3x
G|--------------------------|-------------------------||----------------------|
D|--------------------------|------------------------*||----------------------|
A|--4----4---4-4--4--4--4-4-|--------------------4---*||--4----3----4---------|
E|--------------------------|--4--4-------------------||-----------------4----|

G|--------------------------|--------------------------||
D|--------------------------|--------------------------||
A|--6--6--6--6--6--6--6--6--|--6--6--6--6--6--6--6--6--||
E|--------------------------|--------------------------||



G|-----------------------------------------------------|
D|-----------------------------------------------------|
A|-----------------------------------------------------|
E|--4-----------------------------4--4--4--4--4--4-2---|

G|------------------------|-------------------------|
D|------------------------|-------------------------|
A|--4--4-------4--4-------|-------------------------|
E|------------------------|--4--4-------4--4--4-2---|

G|------------------------------|--------------------------|
D|------------------------------|--------------------------|
A|--4--4-4-4--4-4-4--4-4-4--4-4-|--------------------------|
E|------------------------------|--4--4--L--4--4--4--4-2---|

G|---------------------------|----------------------------|
D|---------------------------|----------------------------|
A|--4--4-------4--4----------|----------6---8--8-8-8--8\--|
E|---------------------12\---|--4--4----------------------|

G|--------------------------|--------------------------|
D|--------------------------|--------------------------|
A|--4--4--3--3--4--4--------|--6--6--6--6--6--6--6--6--|
E|--------------------4--4--|--------------------------|



Guitar Solo

G|----------------------------------------------------------|
D|----------------------------------------------------------|
A|----------------------------------------------6--6--6--6--|
E|--4---------------------------------4--4--4-4-------------|

G|-----------------------------|----------------------------|
D|-----------------------------|----------------------------|
A|---------------4-4--4-4--4-4-|---------------6--6--6--6-6-|
E|--4--4--4--4-4---------------|--4--4--4--4-4--------------|

G|---------------------------|---------------------------|
D|---------------------------|---------------------------|
A|---------------6--6--6--6--|---------------6--6--6--6--|
E|--4--4--4--4-4-------------|--4--4--4--4-4-------------|

G|-----------------------------|--------------------------|
D|-----------------------------|--------------------------|
A|---------------4-4--4-4--4-4-|--4--4--3--3--4--4--------|
E|--4--4--4--4-4---------------|--------------------4--4--|

G|--------------------------|--------------------------|
D|--------------------------|--------------------------|
A|--6--6--6--6--6--6--6--6--|--6--6--6--6--6--6--6-4---|
E|--------------------------|--------------------------|



G|-----------------------------------------------------|
D|-----------------------------------------------------|
A|----------------------------------------6--6--6--6-6-|
E|--4---------------------------4--4--4-4--------------|

G|------------------------------|----------------------------|
D|------------------------------|----------------------------|
A|--------------6-6-6-6-6-6-6-6-|---------------6--6--6--6-6-|
E|--4----4--4-4-----------------|--4--4--4--4-4--------------|

G|------------------------|
D|------------------------|
A|----------4-------------|
E|--4--4--------4---------|



Leave your comments about this lesson