Green Day

When I Come Around

When I Come Around by Green Day Bass Tab and Video Lesson

98 BPM 98 BPM

Level: Intermediate

Genre:Punk Rock

Instrument:4 String Bass

NOTES

How to play When I Come Around by Green Day in Bass Guitar.

Intro

G|-----3h4-3------|
D|-4-4--------6---|
A|----------------|
E|----------------|

G|:3h43|:|
D|:4443h43|:|
A|:4444|664222h4:|
E|:2|:|



Bridge

G|----------------|---------------|----------------|-------------4p3|
D|----------------|----------4h6--|----------------|----------------|
A|----------------|--------------6|----------------|----------------|
E|-4-4-4-4-4-4-4-6|-7-7-7-7-7-----|-4-4-4-4-4-4-4-6|-7-7-7-7-7------|



G|:-----3h4-3------------|-----------------:|
D|:--4-4-----4-----3h4-3-|-----------------:|
A|:-----------4-4-4-----4|-6-6--4--2-2-2h4-:|
E|:-2--------------------|-----------------:|



Riff Slow

G|:-----3h4-3------------|-----------------:|
D|:--4-4-----4-----3h4-3-|-----------------:|
A|:-----------4-4-4-----4|-6-6--4--2-2-2h4-:|
E|:-2--------------------|-----------------:|



Leave your comments about this lesson