The Village People

Macho Man

Macho Man by The Village People Bass Tab and Video Lesson

133 BPM 133 BPM

Level: Intermediate

Genre:R&B

Instrument:4 String Bass

NOTES

How to play Macho Man by The Village People in Bass Guitar.

G|------------------------------------------------------5--|
D|------------------------------------------------------3--|
A|--3----------------------------------5----------3--5-----|
E|---------------------------------------------------------|

                                                                           4x
G|--L-------------------|-------------------------|------------------------|
D|--L-------------------|-------------------------|-----------------------*|
A|-------5----3----5----|--3--5----------3--5-----|------------------5----*|
E|----------------------|----------------------4--|--L----3----1/----------|



Pre-Chorus

G|---------------------------------------------------------------|
D|------------------------------------------5-----5-----------6--|
A|---------------------------------------------------------------|
E|--3------------------------------------------3-----3--4--L-----|

G|----------------------10--12--|--------------------------|
D|-----5-----5-----/12----------|-----5-----5-----------6--|
A|------------------------------|--------------------------|
E|--3-----3-----3---------------|--3-----3-----3--4--L-----|

G|--------------------------|-----5-----5-----------6--|
D|-----5-----5--------------|--------------------------|
A|-----------------0--1--2--|--3-----3-----3--4--L-----|
E|--3-----3-----3-----------|--------------------------|

G|-----5-----5----5----------|-----5-----5-----------6--|
D|---------------------------|--------------------------|
A|--3-----3-----3---0--1--2--|--3-----3-----3--4--L-----|
E|---------------------------|--------------------------|

G|-----5-----5--------------|--------------------------|
D|--------------------------|-----5-----5-----------6--|
A|--3-----3-----3-----------|--------------------------|
E|-----------------0--1--2--|--3-----3-----3--4--L-----|

G|----------------------10--12--|--------------------------|
D|-----5-----5-----/12----------|-----5-----5-----------6--|
A|------------------------------|--------------------------|
E|--3-----3-----3---------------|--3-----3-----3--4--L-----|

G|--------------------------|----------------------|----------------------|
D|-----5-----5--------------|----------------------|----------------------|
A|-----------------0--1--2--|--3---------3---------|--3----3----3----3----|
E|--3-----3-----3-----------|----------------------|----------------------|



G|-----------------------------------------------------------|
D|--------------------------------------3-----3-----3-----3--|
A|-----------------------------------------------------------|
E|--1--------------------------------------1-----1-----1-----|

G|-----3-----3-----3-----3--|--------------------------|
D|--------------------------|-----3-----3-----3-----3--|
A|--1-----1-----1-----1-----|--------------------------|
E|--------------------------|--1-----1-----1-----1-----|

G|-----5-----5-----5-----5--|--------------------------|
D|--------------------------|-----3-----3-----3-----3--|
A|--3-----3-----3-----3-----|--------------------------|
E|--------------------------|--1-----1-----1-----1-----|

G|-----3-----3-----3-----3--|-----------------5-----5--|
D|--------------------------|-----3-----3--------------|
A|--1-----1-----1-----1-----|--------------3-----3-----|
E|--------------------------|--1-----1-----------------|

G|-----10-----7-----8-----9---|
D|---------------------------*|
A|--8------5-----6-----7-----*|
E|----------------------------|



G|--7------------------------------------7----5-----4-----5-----|
D|-----------------------------------------0-----0-----0-----0--|
A|--------------------------------------------------------------|
E|--------------------------------------------------------------|

G|--7-7----5-----4-----5-----|
D|------0-----0-----0--3----*|
A|--------------------------*|
E|---------------------------|



Leave your comments about this lesson