Tower of Power

Diggin'on James Brown

Diggin'on James Brown by Tower of Power Bass Tab and Video Lesson

123 BPM 123 BPM

Level: Advanced

Genre:R&B

Instrument:4 String Bass

NOTES

How to play Diggin'on James Brown by Tower of Power in Bass Guitar.

Verse

G|-5-3-----5-3-----5-3---------|-------3-5--------------------|
D|-----5-3-----5-3-----5-3-5-5-|-----5-----2-3-3-4-5-5--------|
A|-----------------------------|-3-3-------------------1-3----|
E|-----------------------------|------------------------------|


G|-----3-5---3----------3-5------------------------3-5-3-5----------8-10-|
D|---5-----5---5------5-----2-3-3-4-5-5----------5---------5-3-3-10------|
A|-3--------------3-3-------------------1-3--3-3-------------------------|
E|-----------------------------------------------------------------------|


G|--------------------3-5-5-----------------5-3-----5-5----|
D|-3-3--------------5-------3-4-5--5-3-4-5------5-3--------|
A|-----0-1-1-2-3--3----------------------------------------|
E|---------------------------------------------------------|



Verse Slow

G|-5-3-----5-3-----5-3---------|-------3-5--------------------|
D|-----5-3-----5-3-----5-3-5-5-|-----5-----2-3-3-4-5-5--------|
A|-----------------------------|-3-3-------------------1-3----|
E|-----------------------------|------------------------------|


G|-----3-5---3----------3-5------------------------3-5-3-5----------8-10-|
D|---5-----5---5------5-----2-3-3-4-5-5----------5---------5-3-3-10------|
A|-3--------------3-3-------------------1-3--3-3-------------------------|
E|-----------------------------------------------------------------------|


G|--------------------3-5-5-----------------5-3-----5-5----|
D|-3-3--------------5-------3-4-5--5-3-4-5------5-3--------|
A|-----0-1-1-2-3--3----------------------------------------|
E|---------------------------------------------------------|



Verse 2

G|-------3-5---------------------------3-5--5-3-----------8-10--------|
D|-----5------2-2-2-3-3-3-3-4-5------5----------5-3--3-10-------3-3---|
A|-3-3--------------------------3--3--------------------------------0-|
E|--------------------------------------------------------------------|


G|--------------3-5--5-----------------5-3-----5-5----|
D|------------5--------3-4-5--3-4-5-5------5-3--------|
A|-1-1-2-3--3-----------------------------------------|
E|----------------------------------------------------|



Verse 3

G|-------3-5---------------------3-5----3----------3-5--------------|
D|-----5-----------------------5------5---5------5------------------|
A|-3-3--------0-0-0-1-1-2-3--3--------------3--3--------2-2-2-3-3-5-|
E|------------------------------------------------------------------|


G|-----5-5---3-5-5-3----------8-10---------------------3-5-5----------------|
D|---------5---------5-3-3-10-------3-3--------------5-------3-4-5-5-3-4-5--|
A|-3-3----------------------------------0-1-1-2-3--3------------------------|
E|--------------------------------------------------------------------------|


G|-5-3-----5-5----|
D|-----5-3--------|
A|----------------|
E|----------------|



Solo

G|-5-3--------------------------------------------------------------|
D|-----5-3-1-5--4--3-1-2-3-3----------------3-1-2-3-3----------1-3--|
A|---------------------------0-1-1-2-2-2-3-------------0-1-2-3------|
E|------------------------------------------------------------------|


G|--------------------------5-3-----5-5----|
D|-1-2-3-3-3---------3-5--------5-3--------|
A|-----------0-0-1-3-----------------------|
E|-----------------------3-----------------|



Solo Slow

G|-5-3--------------------------------------------------------------|
D|-----5-3-1-5--4--3-1-2-3-3----------------3-1-2-3-3----------1-3--|
A|---------------------------0-1-1-2-2-2-3-------------0-1-2-3------|
E|------------------------------------------------------------------|


G|--------------------------5-3-----5-5----|
D|-1-2-3-3-3---------3-5--------5-3--------|
A|-----------0-0-1-3-----------------------|
E|-----------------------3-----------------|



Leave your comments about this lesson