Tower of Power

You've got to Funkfize

You've got to Funkfize by Tower of Power Bass Tab and Video Lesson

Level: Intermediate

Genre:R&B

Instrument:4 String Bass

NOTES

How to play You've got to Funkfize by Tower of Power in Bass Guitar.

Intro and Chorus

G|---------------------------------------------|
D|---------------------------------------------|
A|---------------------------------------------|
E|--------------------------------------5-L----|

G|-----7-5-7-7---------7-5-7-7-----|------7-5-7-7---------7-5-7-7-----|
D|---------------------------------|----------------------------------|
A|--5----------3-4-5-5---------3-4-|--5-5---------3-4-5-5---------3-4-|
E|---------------------------------|----------------------------------|

G|------7-5-7-7---------7-5-7-7-----|------7-5-7-7---------7-5-7-7-----|
D|----------------------------------|----------------------------------|
A|--5-5---------3-4-5-5---------3-4-|--5-5---------3-4-5-5---------3-4-|
E|----------------------------------|----------------------------------|

G|------7-5-7-7---------7-5-7-7-----|------7-5-7-7---------7-5-7-7-----|
D|----------------------------------|----------------------------------|
A|--5-5---------3-4-5-5---------3-4-|--5-5---------3-4-5-5---------3-4-|
E|----------------------------------|----------------------------------|

G|------7-5-7-7---------7-5-7-7-----|------7-5-7-7---------7-5-7-7-----|
D|----------------------------------|----------------------------------|
A|--5-5---------3-4-5-5---------3-4-|--5-5---------3-4-5-5---------3-4-|
E|----------------------------------|----------------------------------|



Intro and Chorus Slow

G|---------------------------------------------|
D|---------------------------------------------|
A|---------------------------------------------|
E|--------------------------------------5-L----|

G|-----7-5-7-7---------7-5-7-7-----|------7-5-7-7---------7-5-7-7-----|
D|---------------------------------|----------------------------------|
A|--5----------3-4-5-5---------3-4-|--5-5---------3-4-5-5---------3-4-|
E|---------------------------------|----------------------------------|

G|------7-5-7-7---------7-5-7-7-----|------7-5-7-7---------7-5-7-7-----|
D|----------------------------------|----------------------------------|
A|--5-5---------3-4-5-5---------3-4-|--5-5---------3-4-5-5---------3-4-|
E|----------------------------------|----------------------------------|

G|------7-5-7-7---------7-5-7-7-----|------7-5-7-7---------7-5-7-7-----|
D|----------------------------------|----------------------------------|
A|--5-5---------3-4-5-5---------3-4-|--5-5---------3-4-5-5---------3-4-|
E|----------------------------------|----------------------------------|

G|------7-5-7-7---------7-5-7-7-----|------7-5-7-7---------7-5-7-7-----|
D|----------------------------------|----------------------------------|
A|--5-5---------3-4-5-5---------3-4-|--5-5---------3-4-5-5---------3-4-|
E|----------------------------------|----------------------------------|



Verses 1 and 2

G|------------------------------------------7-5-7-7---------7-5-7-7-----|
D|----------------------------------------------------------------------|
A|--5-------------------------------------5---------3-4-5-5---------3-4-|
E|----------------------------------------------------------------------|

G|------7-5-7-7---------7-5-7-7-----|------7-5-7-7---------7-5-7-7-----|
D|----------------------------------|----------------------------------|
A|--5-5---------3-4-5-5---------3-4-|--5-5---------3-4-5-5---------3-4-|
E|----------------------------------|----------------------------------|

G|------7-5-7-7-------------------|------12-10-12-12-----------12-10-12-12-----|
D|--------------------------------|--------------------------------------------|
A|--5-5---------3-4-8----9----10--|--10--------------8-9-10-10-------------8-9-|
E|--------------------------------|--------------------------------------------|

G|--------12-10-12-12-----------12-10-12-12----|
D|---------------------------------------------|
A|--10-10-------------8-9-10-10----------------|
E|---------------------------------------------|

G|------7-5-7-7---------7-5-7-7-----|------7-5-7-7---------7-5-7-7-----|
D|----------------------------------|----------------------------------|
A|--5-5---------3-4-5-5---------3-4-|--5-5---------3-4-5-5-----------7-|
E|----------------------------------|----------------------------------|

G|----------5----------------------|----------------------------------|
D|------5---------6h-7-----6h-7----|--7-------------6h-7-----6h-7-----|
A|--L-7---7-----7--------7---------|----4--5-L-6--7--------7--------7-|
E|---------------------------------|----------------------------------|

G|----------5----------------------|--------5-----------------|
D|------5---------6h-7-----6h-7----|----4-7------------7------|
A|--L-7---7-----7--------7---------|--5-----------------------|
E|---------------------------------|--------------------------|



Verses 1 and 2 Slow

G|------------------------------------------7-5-7-7---------7-5-7-7-----|
D|----------------------------------------------------------------------|
A|--5-------------------------------------5---------3-4-5-5---------3-4-|
E|----------------------------------------------------------------------|

G|------7-5-7-7---------7-5-7-7-----|------7-5-7-7---------7-5-7-7-----|
D|----------------------------------|----------------------------------|
A|--5-5---------3-4-5-5---------3-4-|--5-5---------3-4-5-5---------3-4-|
E|----------------------------------|----------------------------------|

G|------7-5-7-7-------------------|------12-10-12-12-----------12-10-12-12-----|
D|--------------------------------|--------------------------------------------|
A|--5-5---------3-4-8----9----10--|--10--------------8-9-10-10-------------8-9-|
E|--------------------------------|--------------------------------------------|

G|--------12-10-12-12-----------12-10-12-12----|
D|---------------------------------------------|
A|--10-10-------------8-9-10-10----------------|
E|---------------------------------------------|

G|------7-5-7-7---------7-5-7-7-----|------7-5-7-7---------7-5-7-7-----|
D|----------------------------------|----------------------------------|
A|--5-5---------3-4-5-5---------3-4-|--5-5---------3-4-5-5-----------7-|
E|----------------------------------|----------------------------------|

G|----------5----------------------|----------------------------------|
D|------5---------6h-7-----6h-7----|--7-------------6h-7-----6h-7-----|
A|--L-7---7-----7--------7---------|----4--5-L-6--7--------7--------7-|
E|---------------------------------|----------------------------------|

G|----------5----------------------|--------5-----------------|
D|------5---------6h-7-----6h-7----|----4-7------------7------|
A|--L-7---7-----7--------7---------|--5-----------------------|
E|---------------------------------|--------------------------|



Bridge 1st Part

G|------------------------------------------------7-5-7-7---------------------|
D|----------------------------------------------------------------------------|
A|--5-------------------------------------------5---------5-5---------1-1-2-2-|
E|------------------------------------------------------------3-4-5-5---------|

G|--------------------3-4-5---5----|---------------------------------|
D|---------------------------------|--3-3-3-3-3----------------------|
A|--3-3-----3-3-----3------------3-|-------------------------0-1---2-|
E|--------3-------3----------------|---------------1---1-1-1---------|

G|--------------------3-4-5---5----|---------------------------------|
D|---------------------------------|--3-3-3-3-3----------------------|
A|--3-3-----3-3-----3------------3-|-------------------------0-1---2-|
E|--------3-------3----------------|---------------1---1-1-1---------|

G|--------------------3-4-5---5----|---------------------------------|
D|---------------------------------|--3-3-3-3-3----------------------|
A|--3-3-----3-3-----3------------3-|-------------------------0-1---2-|
E|--------3-------3----------------|---------------1---1-1-1---------|

G|--------------------3-4-5---5----|---------------------------------|
D|---------------------------------|--3-3-3-3-3----------------------|
A|--3-3-----3-3-----3------------3-|-------------------------2-3---4-|
E|--------3-------3----------------|---------------1---1-1-1---------|



Bridge 1st Part Slow

G|------------------------------------------------7-5-7-7---------------------|
D|----------------------------------------------------------------------------|
A|--5-------------------------------------------5---------5-5---------1-1-2-2-|
E|------------------------------------------------------------3-4-5-5---------|

G|--------------------3-4-5---5----|---------------------------------|
D|---------------------------------|--3-3-3-3-3----------------------|
A|--3-3-----3-3-----3------------3-|-------------------------0-1---2-|
E|--------3-------3----------------|---------------1---1-1-1---------|

G|--------------------3-4-5---5----|---------------------------------|
D|---------------------------------|--3-3-3-3-3----------------------|
A|--3-3-----3-3-----3------------3-|-------------------------0-1---2-|
E|--------3-------3----------------|---------------1---1-1-1---------|

G|--------------------3-4-5---5----|---------------------------------|
D|---------------------------------|--3-3-3-3-3----------------------|
A|--3-3-----3-3-----3------------3-|-------------------------0-1---2-|
E|--------3-------3----------------|---------------1---1-1-1---------|

G|--------------------3-4-5---5----|---------------------------------|
D|---------------------------------|--3-3-3-3-3----------------------|
A|--3-3-----3-3-----3------------3-|-------------------------2-3---4-|
E|--------3-------3----------------|---------------1---1-1-1---------|



Bridge 2nd Part

G|--------------------------------------------------------------5-6-7---7----|
D|---------------------------------------------------------------------------|
A|--5-------------------------------------------5-----5-5-----5------------5-|
E|--------------------------------------------------5-------5----------------|

G|------------5-6-7-----------------|--------------------5-6-7---7----|
D|--5-5-----5-----------------------|---------------------------------|
A|--------5-------------------------|--5-5-----5-5-----5------------5-|
E|--------------------0---1---2---3-|--------5-------5----------------|

G|------------5-6-7-----------------|--------------------5-6-7---7----|
D|--5-5-----5-----------------------|---------------------------------|
A|--------5-------------------------|--5-5-----5-5-----5------------5-|
E|--------------------0---1---2---3-|--------5-------5----------------|

G|------------5-6-7-----------------|--------------------5-6-7---7----|
D|--5-5-----5-----------------------|---------------------------------|
A|--------5-------------------------|--5-5-----5-5-----5------------5-|
E|--------------------0---1---2---3-|--------5-------5----------------|

G|------------5-6-7----------------|
D|--5-5-----5----------------------|
A|--------5-----------2--2-3-3-4-4-|
E|---------------------------------|



Bridge 2nd Part Slow

G|--------------------------------------------------------------5-6-7---7----|
D|---------------------------------------------------------------------------|
A|--5-------------------------------------------5-----5-5-----5------------5-|
E|--------------------------------------------------5-------5----------------|

G|------------5-6-7-----------------|--------------------5-6-7---7----|
D|--5-5-----5-----------------------|---------------------------------|
A|--------5-------------------------|--5-5-----5-5-----5------------5-|
E|--------------------0---1---2---3-|--------5-------5----------------|

G|------------5-6-7-----------------|--------------------5-6-7---7----|
D|--5-5-----5-----------------------|---------------------------------|
A|--------5-------------------------|--5-5-----5-5-----5------------5-|
E|--------------------0---1---2---3-|--------5-------5----------------|

G|------------5-6-7-----------------|--------------------5-6-7---7----|
D|--5-5-----5-----------------------|---------------------------------|
A|--------5-------------------------|--5-5-----5-5-----5------------5-|
E|--------------------0---1---2---3-|--------5-------5----------------|

G|------------5-6-7----------------|
D|--5-5-----5----------------------|
A|--------5-----------2--2-3-3-4-4-|
E|---------------------------------|



Guitar Solo

G|------------------------------------------------------------|
D|------------------------------------------------------------|
A|--5------------------------------------------------4--5-----|
E|------------------------------------------------------------|

G|-----------------------|-----------------------|-----------------------|
D|-----------------------|-----------------------|-----------------------|
A|--------------6--5-----|--------------4--5-----|--------------6--5-----|
E|-----------------------|-----------------------|-----------------------|

G|----------------------------|--------7--------------------|
D|----------------------7--7--|-----------------------------|
A|--5--5--5--------3-5--------|--5--5--------------------3--|
E|-------------5-L------------|-------------1-L-2-3--4-5----|

G|----------------------------|--------7--------------------|
D|----------------------7--7--|-----------------------------|
A|--5--5--5--------3-5--------|--5--5--------------------3--|
E|-------------5-L------------|-------------1-L-2-3--4-5----|

G|----------------------------|--------7--------------------|
D|----------------------7--7--|-----------------------------|
A|--5--5--5--------3-5--------|--5--5--------------------3--|
E|-------------5-L------------|-------------1-L-2-3--4-5----|

G|------------------------------|------------------------------|----|
D|------------------------------|---------4----5-L---6----7----|----|
A|--5--5--5----5-L---3--5---5---|--5-5-------------------------|----|
E|-----------------5------5---5-|------------------------------|----|



Guitar Solo Slow

G|------------------------------------------------------------|
D|------------------------------------------------------------|
A|--5------------------------------------------------4--5-----|
E|------------------------------------------------------------|

G|-----------------------|-----------------------|-----------------------|
D|-----------------------|-----------------------|-----------------------|
A|--------------6--5-----|--------------4--5-----|--------------6--5-----|
E|-----------------------|-----------------------|-----------------------|

G|----------------------------|--------7--------------------|
D|----------------------7--7--|-----------------------------|
A|--5--5--5--------3-5--------|--5--5--------------------3--|
E|-------------5-L------------|-------------1-L-2-3--4-5----|

G|----------------------------|--------7--------------------|
D|----------------------7--7--|-----------------------------|
A|--5--5--5--------3-5--------|--5--5--------------------3--|
E|-------------5-L------------|-------------1-L-2-3--4-5----|

G|----------------------------|--------7--------------------|
D|----------------------7--7--|-----------------------------|
A|--5--5--5--------3-5--------|--5--5--------------------3--|
E|-------------5-L------------|-------------1-L-2-3--4-5----|

G|------------------------------|------------------------------|----|
D|------------------------------|---------4----5-L---6----7----|----|
A|--5--5--5----5-L---3--5---5---|--5-5-------------------------|----|
E|-----------------5------5---5-|------------------------------|----|



G|-----------------------------------------------------7--7--|
D|-----------------------------------------------------------|
A|--5--------------------------------5--------3-L-4-5--------|
E|-----------------------------------------------------------|

G|--------7-----------------------|-------------------------7--7--|
D|--------------------------------|-------------------------------|
A|--5-5---------5--------------3--|----5---5-----5-3-L-4-5--------|
E|------------5---2-L-3-4----5----|------------5------------------|

G|--------7-----------------------|-------------------------7--7--|
D|--------------------------------|-------------------------------|
A|--5-5---------5--------------3--|----5---5-----5-3-L-4-5--------|
E|------------5---2-L-3-4----5----|------------5------------------|

G|--------7-----------------------|-------------------------7--7--|
D|--------------------------------|-------------------------------|
A|--5-5---------5--------------3--|----5---5-----5-3-L-4-5--------|
E|------------5---2-L-3-4----5----|------------5------------------|

G|--------7-----------------------|
D|--------------------------------|
A|--5-5---------5--------------5--|
E|------------5---2-L-3-4----5----|



Sax Solo Slow

G|-----------------------------------------------------7--7--|
D|-----------------------------------------------------------|
A|--5--------------------------------5--------3-L-4-5--------|
E|-----------------------------------------------------------|

G|--------7-----------------------|-------------------------7--7--|
D|--------------------------------|-------------------------------|
A|--5-5---------5--------------3--|----5---5-----5-3-L-4-5--------|
E|------------5---2-L-3-4----5----|------------5------------------|

G|--------7-----------------------|-------------------------7--7--|
D|--------------------------------|-------------------------------|
A|--5-5---------5--------------3--|----5---5-----5-3-L-4-5--------|
E|------------5---2-L-3-4----5----|------------5------------------|

G|--------7-----------------------|-------------------------7--7--|
D|--------------------------------|-------------------------------|
A|--5-5---------5--------------3--|----5---5-----5-3-L-4-5--------|
E|------------5---2-L-3-4----5----|------------5------------------|

G|--------7-----------------------|
D|--------------------------------|
A|--5-5---------5--------------5--|
E|------------5---2-L-3-4----5----|



G|----------------------------------|--5-7-----------------------|
D|----------------------------------|------5-7-3-----------------|
A|----------------------------------|-------------5--5----5------|
E|----------------------------------|----------------------------|

G|-------------------|--5-7------------------------|
D|-------------------|------5-7-3----------------5-|
A|-------------------|-------------5--5----5-------|
E|-------------------|-----------------------------|



Final 1st Part

G|-------------------------------------------7-7-------------------------|
D|-----------------------------------------------------------4-4-5-5-6-6-|
A|--5--------------------------------------------3-3-4-4-5-5-------------|
E|-----------------------------------------------------------------------|

G|---------------------------------|---------------------5-5-6-6-7---|
D|--7-7----------------------------|-------------------------------4-|
A|------2-2-3-3-4-4-5----5-----3---|-----5-5-3-3-4-4-5-5-------------|
E|---------------------------5---5-|---------------------------------|

G|---------------------------------|-----7-7-------------------------|
D|--5-4-5-5-6-6-7-7----------------|---------------------------------|
A|------------------5----5-----3-5-|---------3-3-4-4-5-5-------------|
E|---------------------------5-----|---------------------5-5-4-4-3-3-|

G|---------------------------------|
D|---------------------------------|
A|----------3-3-4-4-5----5-----3-5-|
E|--2-3-4-5------------------5-----|



Final 1st Part Slow

G|-------------------------------------------7-7-------------------------|
D|-----------------------------------------------------------4-4-5-5-6-6-|
A|--5--------------------------------------------3-3-4-4-5-5-------------|
E|-----------------------------------------------------------------------|

G|---------------------------------|---------------------5-5-6-6-7---|
D|--7-7----------------------------|-------------------------------4-|
A|------2-2-3-3-4-4-5----5-----3---|-----5-5-3-3-4-4-5-5-------------|
E|---------------------------5---5-|---------------------------------|

G|---------------------------------|-----7-7-------------------------|
D|--5-4-5-5-6-6-7-7----------------|---------------------------------|
A|------------------5----5-----3-5-|---------3-3-4-4-5-5-------------|
E|---------------------------5-----|---------------------5-5-4-4-3-3-|

G|---------------------------------|
D|---------------------------------|
A|----------3-3-4-4-5----5-----3-5-|
E|--2-3-4-5------------------5-----|



Final 2nd Part

G|-----7----------------------------------------7-------------------------|
D|------------------------------------------------------------4-4-5-5-6-6-|
A|------------------------------------------------3-3-4-4-5-5-------------|
E|------------------------------------------------------------------------|

G|------5-5-6-6-7-7----------------|-----7-7-------------5-6-7-6-7---|
D|--7-7----------------------------|-------------------------------4-|
A|------------------5----5-----3-5-|---------3-3-4-4-5-5-------------|
E|---------------------------5-----|---------------------------------|

G|---------------------------------|-----7-7-------------------------|
D|--5-4-5-5-6-6-7-7----------------|---------------------4-4-5-5-6-6-|
A|------------------5----5-----3-5-|---------3-3-4-4-5-5-------------|
E|---------------------------5-----|---------------------------------|

G|------------------------------|-----------------------|
D|--7-7-------------------------|-----------------------|
A|------2-2-3-3-4-4-5----5------|-----------5----5------|
E|------------------------------|-----------------------|



Final 2nd Part Slow

G|-----7----------------------------------------7-------------------------|
D|------------------------------------------------------------4-4-5-5-6-6-|
A|------------------------------------------------3-3-4-4-5-5-------------|
E|------------------------------------------------------------------------|

G|------5-5-6-6-7-7----------------|-----7-7-------------5-6-7-6-7---|
D|--7-7----------------------------|-------------------------------4-|
A|------------------5----5-----3-5-|---------3-3-4-4-5-5-------------|
E|---------------------------5-----|---------------------------------|

G|---------------------------------|-----7-7-------------------------|
D|--5-4-5-5-6-6-7-7----------------|---------------------4-4-5-5-6-6-|
A|------------------5----5-----3-5-|---------3-3-4-4-5-5-------------|
E|---------------------------5-----|---------------------------------|

G|------------------------------|-----------------------|
D|--7-7-------------------------|-----------------------|
A|------2-2-3-3-4-4-5----5------|-----------5----5------|
E|------------------------------|-----------------------|



Leave your comments about this lesson